Christian Worship Song: Underneath The Blood

Contemporary worship song lyrics with chords for Christian churches

Home Worship Chords Home Titles A B C D EF G H I JK L MN O PQR S T UVWXYZ Support Search Codes



Share page  Visit Us On FB


UNDERNEATH THE BLOOD
music by: Ronnie Cates
1993 Petsong Pub (adm. by Word Inc.) (SESAC)
and Rowdy's Groove Music (BMI)

Riff A)

 E |-----------12\-------------10\-------------9\---------------------| gtr 2
 B |------------------------------------------------------------------|
 G |------------9---------------7--------------6----------------------|
 D |------------7---------------5--------------4----------------------|
 A |------------------------------------------------------------------|
 E |3^--0-0---------3^--0-0---------3^--0-0---------3^--0-0--3-0-3-0-5| gtr 1

Riff B)                              ________________  ________________
    /                               |1,3              |2
 E||--------------------------------|-----------------|----------------|
 B||--------------------------------|-----------------|----------------|
 G||o-------------------------------|----------------o|---------------o|
 D||o---2-0------------2-0----------|-------------2--o|------------7--o|
 A||--------2-0------------2-0------|-------------0---|------------5---|
 E||------------3-0------------3-0--|-----------------|----------------|
    \  
    __________
   | 4
 E |-------------------------------------------------------------------|
 B |-------------------------------------------------------------------|
 G |---------------6-6----6-6----7-7----7-7----6-6----6-6----7-7--9----|
 D |--/7--7-9----r-4-4--r-4-4--r-5-5--r-5-5--r-4-4--r-4-4--r-5-5--7----|
 A |--/5--5-7----------------------------------------------------------|
 E |-------------------------------------------------------------------|

CHORUS)

  E |-----------------------------------------------|
  B |-----------------------------------------------|
  G |----------------------------------------------o|
  D |----------------------------------------------o|
  A |--------------------------------5---4----------|
  E |3---0---5---3---0-------3---0-----------5------|
     Underneath the blood  through the cleansing flood
     Guilt is left behind  ne  -ver brought to mind

  E |--------------------------------------|
  B |--------------------------------------|
  G |--------------------------------------|
  D |-4-4-4-4-4-4-4-4---2----------7-------|
  A |-2-2-2-2-2-2-2-2---0----------5---7---|
  E |---|---mute---|-------------------5---|

      I'm an innocent man  underneath the blood

SOLO 1)

E -------3-----------------------------------|
B ---3-------3---3---3~----------------------|
G -4---4-------4---3-------pp----------------|
D -----------------------5-32-5-5-2----------|
A ----------------------------------5-2------|
E --------------------------------------3-0--|

E -/12----10-10---10-12----------------------|
B -/12----10-10---10-12-12-------h-----------|
G ----------------------12-----7-9-12\-------|
D -------------------------------------------|
A -------------------------------------------|
E -------------------------------------------|

SOLO 2)

E --------------------------------------------------------10---10----|
B ------------------------------5---8-8--10-10-----8---10^--10^--10^-|
G -7^-7^-7--75---------------------------------9-----9---------------|
D ------------75-------5---7-5---------------------------------------|
A --------------75-------7-------------------------------------------|
E ----------------74-------------------------------------------------|
E ----------------------10---10--------------------------------------|
B -10^-10-10-10^-8---10^--10^--10^---10^-10-10-10^-10----------------|
G -------------------------------------------------------------------|
D -------------------------------------------------------------------|
A -------------------------------------------------------------------|
E -------------------------------------------------------------------|

                                           h  p
E -10^--10^--10^---10^-10^---15-----h--12-15-12--h--p----------------|
B ------------------------------12-15-----------15-12----------------|
G -------------------------------------------------------------------|
D -------------------------------------------------------------------|
A -------------------------------------------------------------------|
E -------------------------------------------------------------------|
E ----------------------------------12-------------------------------|
B -12--10------10--12-----------10^----------------------------------|
G ---------12----------9----9----------------------------------------|
D -----------------------12------------------------------------------|
A -------------------------------------------------------------------|
E -------------------------------------------------------------------|

SONG ORDER:

RIFF A)   

RIFF B)    

CHORUS  x  2

eight bars rest

CHORUS  x  2

eight bars rest

SOLO 1) gtr 1    RIFF A) gtr 2

CHORUS x 2

SOLO 2) gtr 1    CHORUS (repeat) gtr 2

RIFF B)

Download these lyrics and chords as PDF file For Printing no ads)
Download these lyrics and chords as PNG graphics file For DTP etc (no ads)