Christian Worship Song: Every Now And Thena

Contemporary worship song lyrics with chords for Christian churches

Home Worship Chords Home Titles A B C D EF G H I JK L MN O PQR S T UVWXYZ Support Search Codes



Share page  Visit Us On FB


 EVERY NOW AND THEN
1998 FFH AND ESSENTIAL RECORDS
                  
                  CD  FOUND A PLACEYear:  1999                  
This really didn't take too long to figure out.  I know it looks long,
but just follow the pattern.  The order is: (Note:  The E* refers to the
alternate
ending at the end of the 3rd chorus)

Intro: AA
Verse: AB     Bridge: C    Chorus: DDE
Verse: AB     Bridge: C    Chorus: DDE
1st Interlude: DD     Chorus: DDE*   2nd Interlude: FE
Ending: G

Part A
|-----------3-------------3-2-----------------------------------------|
|-0h1-----1-----1---1---------1---0-3---------------------3---3-----0-|
|-------2---------2-----2-------2-------0---2h4-2-0-----0---0-----0---|
|-----2-------2-------0---------------0---0---------4-2---------0-----|
|-0-------------------------------------------------------------------|
|-------------------2---------------0-------------------------3-------|

Part B
|-----------3-------------3-2-----------------------------------------|
|-0h1-----1-----1---1---------1---0-3---------------------3---3-----3-|
|-------2---------2-----2-------2-------0---2h4-2-0-----0---0-----0---|
|-----2-------2-------0---------------0---0---------4-2---------0-----|
|-0-------------------------------------------------------------------|
|-------------------2---------------0-------------------------3-------|

Part C
|---------3-----------------0---------------0-------0h2-------2h3-2-0---|
|-3-----3-----3-0-2-------2-----2---1-----1-----1-------3-------------3-|
|-----0-----------------0---------0-----0-----0---0-------2-------------|
|-2-2-------2---------2-------2-------2-------------0-------0-0---------|
|-----------------0-----------------0-----------------------------------|
|-----------------------------------------------------------------------|

Part D
|---------3-----------------3-----------------3---------0h2-------2h3-2-0---|
|-3-----3---3---3---3-----3---3---3---3-----3---3---3-------3-------------3-|
|-----0-------0---0-----0-------0---0-----0-------0---0-------2-------------|
|---0-----------------0-----------------2-----------------------0-0---------|
|-------------------2-----------------3-------------------------------------|
|-3-------------------------------------------------------------------------|

Part E
|---------------------------3-----------------3---------*0h2-|
*-0h2-------2h3-2-0---|
|-3-----3--3------3-3-----3---3---3---3-----3---3---3---*3---|
*-----3-------------3-|
|-----0---------2-------0-------0---0-----0-------0---0-*2---|
*-------2-------------|
|---0------0--0-------0-----------------0---------------*0---|
*---------0-0---------|
|-3-----------------------------------3-----------------*----|
*---------------------|
|-------------------3-----------------------------------*----|
*---------------------|

Part F
|---------3-----------------3---------|
|-3-----3---3---3---3-----3---3---3---|
|-----0-------0---0-----0-------0---0-|
|---0-----------------0---------------|
|-------------------2-----------------|
|-3-----------------------------------|
Part G
|-----------3-------------3-2---------------------------------3-|
|-0h1-----1-----1---1---------1---0-3---------------------3---3-|
|-------2---------2-----2-------2-------0---2h4-2-0-----0---0-0-|
|-----2-------2-------0---------------0---0---------4-2-------0-|
|-0-----------------------------------------------------------2-|
|-------------------2---------------0-------------------------3-|
Verse 1:
Every now and then I get a little wrapped up in myself and I can't see
You reaching
Every now and then I get a little overwhelmed and I can't hear you
calling

Bridge:
But you have any ways told me you will always be there
You are only a prayer away

Chorus:
Every now and then you whisper peace to me
With your tender words- unexpectedly
When I'm at the end taking my last breath
Drowning in my pride I've got nothing left
I can see it coming 'round the bend
Yea, you're taking me to that place again

Verse 2:
Every now and then I get a little tired of my reflection and I want to
break the mirror
And every now and then I get blinded by my own perception and-
I need to see you clearer

Bridge:
But you have always told me you will always be there
You are only one prayer away

Chorus:
Every now and then you whisper peace to me
With your tender words- unexpectedly
When I'm at the end taking my last breath
Drowning in my pride I've got nothing left
I can see it coming 'round the bend
Yea, you're taking me to that place again

I can see you coming 'round the bend
Yea, you find me in this place again
Every now and then


Download these lyrics and chords as PDF file For Printing no ads)
Download these lyrics and chords as PNG graphics file For DTP etc (no ads)